  0
SECTION
  2
HEADER
  9
$ACADVER
  1
AC1014
  9
$ACADMAINTVER
 70
         0
  9
$DWGCODEPAGE
  3
ANSI_1252
  9
$INSBASE
 10
0.0
 20
0.0
 30
0.0
  9
$EXTMIN
 10
-0.0775
 20
-0.0775
 30
0.0
  9
$EXTMAX
 10
5.0
 20
6.0
 30
0.0
  9
$LIMMIN
 10
0.0
 20
0.0
  9
$LIMMAX
 10
0.0
 20
0.0
  9
$ORTHOMODE
 70
         0
  9
$REGENMODE
 70
         1
  9
$FILLMODE
 70
         1
  9
$QTEXTMODE
 70
         0
  9
$MIRRTEXT
 70
         1
  9
$DRAGMODE
 70
         2
  9
$LTSCALE
 40
1.0
  9
$OSMODE
 70
         0
  9
$ATTMODE
 70
         1
  9
$TEXTSIZE
 40
0.2
  9
$TRACEWID
 40
0.05
  9
$TEXTSTYLE
  7
STANDARD
  9
$CLAYER
  8
0
  9
$CELTYPE
  6
CONTINUOUS
  9
$CECOLOR
 62
       256
  9
$CELTSCALE
 40
1.0
  9
$DELOBJ
 70
         1
  9
$DISPSILH
 70
         0
  9
$DIMSCALE
 40
1.0
  9
$DIMASZ
 40
0.18
  9
$DIMEXO
 40
0.0625
  9
$DIMDLI
 40
0.38
  9
$DIMRND
 40
0.0
  9
$DIMDLE
 40
0.0
  9
$DIMEXE
 40
0.18
  9
$DIMTP
 40
0.0
  9
$DIMTM
 40
0.0
  9
$DIMTXT
 40
0.18
  9
$DIMCEN
 40
0.09
  9
$DIMTSZ
 40
0.0
  9
$DIMTOL
 70
         0
  9
$DIMLIM
 70
         0
  9
$DIMTIH
 70
         1
  9
$DIMTOH
 70
         1
  9
$DIMSE1
 70
         0
  9
$DIMSE2
 70
         0
  9
$DIMTAD
 70
         0
  9
$DIMZIN
 70
         0
  9
$DIMBLK
  1

  9
$DIMASO
 70
         1
  9
$DIMSHO
 70
         1
  9
$DIMPOST
  1

  9
$DIMAPOST
  1

  9
$DIMALT
 70
         0
  9
$DIMALTD
 70
         2
  9
$DIMALTF
 40
25.4
  9
$DIMLFAC
 40
1.0
  9
$DIMTOFL
 70
         0
  9
$DIMTVP
 40
0.0
  9
$DIMTIX
 70
         0
  9
$DIMSOXD
 70
         0
  9
$DIMSAH
 70
         0
  9
$DIMBLK1
  1

  9
$DIMBLK2
  1

  9
$DIMSTYLE
  2
STANDARD
  9
$DIMCLRD
 70
         0
  9
$DIMCLRE
 70
         0
  9
$DIMCLRT
 70
         0
  9
$DIMTFAC
 40
1.0
  9
$DIMGAP
 40
0.09
  9
$DIMJUST
 70
         0
  9
$DIMSD1
 70
         0
  9
$DIMSD2
 70
         0
  9
$DIMTOLJ
 70
         1
  9
$DIMTZIN
 70
         0
  9
$DIMALTZ
 70
         0
  9
$DIMALTTZ
 70
         0
  9
$DIMFIT
 70
         3
  9
$DIMUPT
 70
         0
  9
$DIMUNIT
 70
         2
  9
$DIMDEC
 70
         4
  9
$DIMTDEC
 70
         4
  9
$DIMALTU
 70
         2
  9
$DIMALTTD
 70
         2
  9
$DIMTXSTY
  7
STANDARD
  9
$DIMAUNIT
 70
         0
  9
$LUNITS
 70
         2
  9
$LUPREC
 70
         4
  9
$SKETCHINC
 40
0.1
  9
$FILLETRAD
 40
0.0
  9
$AUNITS
 70
         0
  9
$AUPREC
 70
         0
  9
$MENU
  1
acad
  9
$ELEVATION
 40
0.0
  9
$PELEVATION
 40
0.0
  9
$THICKNESS
 40
0.0
  9
$LIMCHECK
 70
         0
  9
$BLIPMODE
 70
         1
  9
$CHAMFERA
 40
0.0
  9
$CHAMFERB
 40
0.0
  9
$CHAMFERC
 40
0.0
  9
$CHAMFERD
 40
0.0
  9
$SKPOLY
 70
         0
  9
$TDCREATE
 40
2455973.550289352
  9
$TDUPDATE
 40
0.000000000
  9
$TDINDWG
 40
0.0000000000
  9
$TDUSRTIMER
 40
0.0000000000
  9
$USRTIMER
 70
         1
  9
$ANGBASE
 50
0.0
  9
$ANGDIR
 70
         0
  9
$PDMODE
 70
         0
  9
$PDSIZE
 40
0.0
  9
$PLINEWID
 40
0.0
  9
$COORDS
 70
         0
  9
$SPLFRAME
 70
         0
  9
$SPLINETYPE
 70
         6
  9
$SPLINESEGS
 70
         8
  9
$ATTDIA
 70
         0
  9
$ATTREQ
 70
         1
  9
$HANDLING
 70
         1
  9
$HANDSEED
  5
B2
  9
$SURFTAB1
 70
         6
  9
$SURFTAB2
 70
         6
  9
$SURFTYPE
 70
         6
  9
$SURFU
 70
         6
  9
$SURFV
 70
         6
  9
$UCSNAME
  2

  9
$UCSORG
 10
0.0
 20
0.0
 30
0.0
  9
$UCSXDIR
 10
1.0
 20
0.0
 30
0.0
  9
$UCSYDIR
 10
0.0
 20
1.0
 30
0.0
  9
$PUCSNAME
  2

  9
$PUCSORG
 10
0.0
 20
0.0
 30
0.0
  9
$PUCSXDIR
 10
1.0
 20
0.0
 30
0.0
  9
$PUCSYDIR
 10
0.0
 20
1.0
 30
0.0
  9
$USERI1
 70
        -1
  9
$USERI2
 70
         0
  9
$USERI3
 70
         0
  9
$USERI4
 70
         0
  9
$USERI5
 70
         0
  9
$USERR1
 40
0.0
  9
$USERR2
 40
0.0
  9
$USERR3
 40
0.0
  9
$USERR4
 40
0.0
  9
$USERR5
 40
0.0
  9
$WORLDVIEW
 70
         1
  9
$SHADEDGE
 70
         3
  9
$SHADEDIF
 70
        70
  9
$TILEMODE
 70
         1
  9
$MAXACTVP
 70
        16
  9
$PINSBASE
 10
0.0
 20
0.0
 30
0.0
  9
$PLIMCHECK
 70
         0
  9
$PEXTMIN
 10
1.0000000000E+20
 20
1.0000000000E+20
 30
1.0000000000E+20
  9
$PEXTMAX
 10
-1.0000000000E+20
 20
-1.0000000000E+20
 30
-1.0000000000E+20
  9
$PLIMMIN
 10
0.0
 20
0.0
  9
$PLIMMAX
 10
12.0
 20
9.0
  9
$UNITMODE
 70
         0
  9
$VISRETAIN
 70
         0
  9
$PLINEGEN
 70
         1
  9
$PSLTSCALE
 70
         0
  9
$TREEDEPTH
 70
      3020
  9
$PICKSTYLE
 70
         1
  9
$CMLSTYLE
  2
STANDARD
  9
$CMLJUST
 70
         0
  9
$CMLSCALE
 40
1.0
  9
$PROXYGRAPHICS
 70
         0
  9
$MEASUREMENT
 70
         0
  0
ENDSEC
  0
SECTION
  2
CLASSES
  0
CLASS
  1
LWPOLYLINE
  2
AcDbPolyline
  3
"AutoCAD"
 90
        0
280
         0
281
         1
  0
CLASS
  1
IMAGE
  2
AcDbRasterImage
  3
ISM
 90
      127
280
         0
281
         1
  0
CLASS
  1
OLE2FRAME
  2
AcDbOle2Frame
  3
""
 90
        0
280
         0
281
         1
  0
CLASS
  1
HATCH
  2
AcDbHatch
  3
"ACAD_SEDONA"
 90
        0
280
         0
281
         1
  0
CLASS
  1
DICTIONARYVAR
  2
AcDbDictionaryVar
  3
"AutoCAD"
 90
        0
280
         0
281
         0
  0
CLASS
  1
RASTERVARIABLES
  2
AcDbRasterVariables
  3
ISM
 90
        0
280
         0
281
         0
  0
CLASS
  1
IMAGEDEF
  2
AcDbRasterImageDef
  3
ISM
 90
        0
280
         0
281
         0
  0
CLASS
  1
IMAGEDEF_REACTOR
  2
AcDbRasterImageDefReactor
  3
ISM
 90
        1
280
         0
281
         0
  0
CLASS
  1
IDBUFFER
  2
AcDbIdBuffer
  3
"Acad"
 90
        0
280
         0
281
         0
  0
CLASS
  1
SPATIAL_FILTER
  2
AcDbSpatialFilter
  3
"Acad"
 90
        0
280
         0
281
         0
  0
CLASS
  1
XRECORD
  2
AcDbXrecord
  3
"<Built In>"
 90
        0
280
         0
281
         0
  0
CLASS
  1
SORTENTSTABLE
  2
AcDbSortentsTable
  3
"AutoCAD"
 90
        0
280
         0
281
         0
  0
CLASS
  1
LAYER_INDEX
  2
AcDbLayerIndex
  3
"Acad"
 90
        0
280
         0
281
         0
  0
CLASS
  1
SPATIAL_INDEX
  2
AcDbSpatialIndex
  3
"Acad"
 90
        0
280
         0
281
         0
  0
CLASS
  1
OBJECT_PTR
  2
CAseDLPNTableRecord
  3
"ASE-LPNTableRecord"
 90
        1
280
         0
281
         0
  0
CLASS
  1
LAYOUT
  2
AcDbLayout
  3
"AutoCAD 2000"
 90
        0
280
         0
281
         0
  0
CLASS
  1
PLOTSETTINGS
  2
AcDbPlotSettings
  3
"AutoCAD 2000"
 90
        0
280
         0
281
         0
  0
CLASS
  1
ACDBDICTIONARYWDFLT
  2
AcDbDictionaryWithDefault
  3
"AutoCAD 2000"
 90
        0
280
         0
281
         0
  0
CLASS
  1
ACDBPLACEHOLDER
  2
AcDbPlaceHolder
  3
"AutoCAD 2000"
 90
        0
280
         0
281
         0
  0
CLASS
  1
VBA_PROJECT
  2
AcDbVbaProject
  3
"acadvba"
 90
        0
280
         0
281
         0
  0
CLASS
  1
WIPEOUT
  2
AcDbWipeout
  3
WipeOut|AutoCAD Express Tool|expresstools@autodesk.com
 90
      127
280
         0
281
         1
  0
CLASS
  1
WIPEOUTVARIABLES
  2
AcDbWipeoutVariables
  3
WipeOut|AutoCAD Express Tool|expresstools@autodesk.com
 90
        0
280
         0
281
         0
  0
CLASS
  1
RTEXT
  2
RText
  3
RText|AutoCAD Express Tool|expresstools@autodesk.com
 90
        0
280
         0
281
         1
  0
CLASS
  1
ARCALIGNEDTEXT
  2
AcDbArcAlignedText
  3
ATEXT|AutoCAD Express Tool|expresstools@autodesk.com
 90
        0
280
         0
281
         1
  0
ENDSEC
  0
SECTION
  2
TABLES
  0
TABLE
  2
VPORT
  5
7
100
AcDbSymbolTable
 70
         1
  0
VPORT
  5
15
100
AcDbSymbolTableRecord
100
AcDbViewportTableRecord
  2
*ACTIVE
 70
         0
 10
0.0
 20
0.0
 11
1.0
 21
1.0
 12
6.591288
 22
4.579184
 13
0.0
 23
0.0
 14
1.0
 24
1.0
 15
0.0
 25
0.0
 16
0.0
 26
0.0
 36
1.0
 17
0.0
 27
0.0
 37
0.0
 40
9.158369
 41
0.688564
 42
50.0
 43
0.0
 44
0.0
 50
0.0
 51
0.0
 71
         0
 72
       100
 73
         1
 74
         1
 75
         0
 76
         0
 77
         0
 78
         0
  0
ENDTAB
  0
TABLE
  2
LTYPE
  5
4
100
AcDbSymbolTable
 70
         3
  0
LTYPE
  5
11
100
AcDbSymbolTableRecord
100
AcDbLinetypeTableRecord
  2
BYBLOCK
 70
        64
  3

 72
        65
 73
         0
 40
0.0
  0
LTYPE
  5
12
100
AcDbSymbolTableRecord
100
AcDbLinetypeTableRecord
  2
BYLAYER
 70
        64
  3

 72
        65
 73
         0
 40
0.0
  0
LTYPE
  5
13
100
AcDbSymbolTableRecord
100
AcDbLinetypeTableRecord
  2
CONTINUOUS
 70
        64
  3
Solid line
 72
        65
 73
         0
 40
0.0
  0
ENDTAB
  0
TABLE
  2
LAYER
  5
2
100
AcDbSymbolTable
 70
         9
  0
LAYER
  5
14
100
AcDbSymbolTableRecord
100
AcDbLayerTableRecord
  2
0
 70
         0
 62
         7
  6
CONTINUOUS
  0
LAYER
  5
24
100
AcDbSymbolTableRecord
100
AcDbLayerTableRecord
  2
BOARD_ORIGIN
 70
         0
 62
       255
  6
CONTINUOUS
  0
LAYER
  5
25
100
AcDbSymbolTableRecord
100
AcDbLayerTableRecord
  2
BOARD_OUTLINE
 70
         0
 62
        10
  6
CONTINUOUS
  0
LAYER
  5
26
100
AcDbSymbolTableRecord
100
AcDbLayerTableRecord
  2
FIDUCIAL_PADS_TOP
 70
         0
 62
       130
  6
CONTINUOUS
  0
LAYER
  5
27
100
AcDbSymbolTableRecord
100
AcDbLayerTableRecord
  2
MOUNTING_HOLE_PADS_LAYER_4
 70
         0
 62
       170
  6
CONTINUOUS
  0
LAYER
  5
28
100
AcDbSymbolTableRecord
100
AcDbLayerTableRecord
  2
MOUNTING_HOLE_PADS_LAYER_5
 70
         0
 62
        32
  6
CONTINUOUS
  0
LAYER
  5
29
100
AcDbSymbolTableRecord
100
AcDbLayerTableRecord
  2
MOUNTING_HOLES_LAYER_TOP
 70
         0
 62
        42
  6
CONTINUOUS
  0
LAYER
  5
2A
100
AcDbSymbolTableRecord
100
AcDbLayerTableRecord
  2
MOUNTING_HOLES_LAYER_BOTT7
 70
         0
 62
        42
  6
CONTINUOUS
  0
LAYER
  5
2B
100
AcDbSymbolTableRecord
100
AcDbLayerTableRecord
  2
NC_DRILL_ORIGIN
 70
         0
 62
       255
  6
CONTINUOUS
  0
ENDTAB
  0
TABLE
  2
STYLE
  5
3
100
AcDbSymbolTable
 70
         2
  0
STYLE
  5
17
100
AcDbSymbolTableRecord
100
AcDbTextStyleTableRecord
  2
STANDARD
 70
         0
 40
0.0
 41
1.0
 50
0.0
 71
         0
 42
0.0
  3
txt
  4

  0
STYLE
  5
2F
100
AcDbSymbolTableRecord
100
AcDbTextStyleTableRecord
  2
ARIAL
 70
         0
 40
0.0
 41
1.0
 50
0.0
 71
         0
 42
0.0
  3
arial.ttf
  4

  0
ENDTAB
  0
TABLE
  2
VIEW
  5
5
100
AcDbSymbolTable
 70
         0
  0
ENDTAB
  0
TABLE
  2
UCS
  5
6
100
AcDbSymbolTable
 70
         0
  0
ENDTAB
  0
TABLE
  2
APPID
  5
8
100
AcDbSymbolTable
 70
         1
  0
APPID
  5
16
100
AcDbSymbolTableRecord
100
AcDbRegAppTableRecord
  2
ACAD
 70
         0
  0
ENDTAB
  0
TABLE
  2
DIMSTYLE
  5
9
100
AcDbSymbolTable
 70
         1
  0
DIMSTYLE
105
18
100
AcDbSymbolTableRecord
100
AcDbDimStyleTableRecord
  2
STANDARD
 70
         0
  3

  4

  5

  6

  7

 40
1.0
 41
0.18
 42
0.0625
 43
0.38
 44
0.18
 45
0.0
 46
0.0
 47
0.0
 48
0.0
 71
         0
 72
         0
 73
         1
 74
         1
 75
         0
 76
         0
 77
         0
 78
         0
140
0.18
141
0.09
142
0.0
143
25.4
144
1.0
145
0.0
146
1.0
147
0.09
170
         0
171
         2
172
         0
173
         0
174
         0
175
         0
176
         0
177
         0
178
         0
270
         2
271
         4
272
         4
273
         2
274
         2
275
         0
280
         0
281
         0
282
         0
283
         1
284
         0
285
         0
286
         0
287
         3
288
         0
340
17
  0
ENDTAB
  0
TABLE
  2
BLOCK_RECORD
  5
1
100
AcDbSymbolTable
 70
         0
  0
BLOCK_RECORD
  5
A
100
AcDbSymbolTableRecord
100
AcDbBlockTableRecord
  2
*MODEL_SPACE
  0
BLOCK_RECORD
  5
B
100
AcDbSymbolTableRecord
100
AcDbBlockTableRecord
  2
*PAPER_SPACE
  0
ENDTAB
  0
ENDSEC
  0
SECTION
  2
BLOCKS
  0
BLOCK
  5
D
100
AcDbEntity
  8
0
100
AcDbBlockBegin
  2
*MODEL_SPACE
 70
         0
 10
0.0
 20
0.0
 30
0.0
  3
*MODEL_SPACE
  1

  0
ENDBLK
  5
E
100
AcDbEntity
  8
0
100
AcDbBlockEnd
  0
BLOCK
  5
F
100
AcDbEntity
 67
         1
  8
0
100
AcDbBlockBegin
  2
*PAPER_SPACE
 70
         0
 10
0.0
 20
0.0
 30
0.0
  3
*PAPER_SPACE
  1

  0
ENDBLK
  5
10
100
AcDbEntity
 67
         1
  8
0
100
AcDbBlockEnd
  0
ENDSEC
  0
SECTION
  2
ENTITIES
  0
LWPOLYLINE
  5
2C
100
AcDbEntity
  8
BOARD_ORIGIN
100
AcDbPolyline
 90
        2
 70
         0
 43
0.005
 10
-0.075
 20
0.0
 10
0.075
 20
0.0
  0
LWPOLYLINE
  5
2D
100
AcDbEntity
  8
BOARD_ORIGIN
100
AcDbPolyline
 90
        2
 70
         0
 43
0.005
 10
0.0
 20
-0.075
 10
0.0
 20
0.075
  0
LWPOLYLINE
  5
2E
100
AcDbEntity
  8
BOARD_ORIGIN
100
AcDbPolyline
 90
        2
 70
         1
 43
0.005
 10
-0.056
 20
0.0
 42
-1.0
 10
0.056
 20
0.0
 42
-1.0
  0
TEXT
  5
30
100
AcDbEntity
  8
BOARD_ORIGIN
100
AcDbText
 10
0.005
 20
0.005
 30
0.0
 40
0.04
  1
B
  7
ARIAL
 11
0.005
 21
0.005
 31
0.0
100
AcDbText
 73
         1
  0
LWPOLYLINE
  5
31
100
AcDbEntity
  8
BOARD_OUTLINE
100
AcDbPolyline
 90
        4
 70
         1
 43
0.01
 10
0.0
 20
0.0
 10
0.0
 20
6.0
 10
5.0
 20
6.0
 10
5.0
 20
0.0
  0
CIRCLE
  5
32
100
AcDbEntity
  8
FIDUCIAL_PADS_TOP
100
AcDbCircle
 10
2.3094488189
 20
3.5405511811
 30
0.0
 40
0.0196850394
  0
CIRCLE
  5
33
100
AcDbEntity
  8
FIDUCIAL_PADS_TOP
100
AcDbCircle
 10
3.4905511811
 20
2.3594488189
 30
0.0
 40
0.0196850394
  0
CIRCLE
  5
34
100
AcDbEntity
  8
MOUNTING_HOLE_PADS_LAYER_4
100
AcDbCircle
 10
2.24
 20
0.31
 30
0.0
 40
0.0127952756
  0
CIRCLE
  5
35
100
AcDbEntity
  8
MOUNTING_HOLE_PADS_LAYER_4
100
AcDbCircle
 10
2.4404266929
 20
5.3648108268
 30
0.0
 40
0.0127952756
  0
CIRCLE
  5
36
100
AcDbEntity
  8
MOUNTING_HOLE_PADS_LAYER_4
100
AcDbCircle
 10
4.8
 20
0.2
 30
0.0
 40
0.0127952756
  0
CIRCLE
  5
37
100
AcDbEntity
  8
MOUNTING_HOLE_PADS_LAYER_4
100
AcDbCircle
 10
0.2
 20
0.2
 30
0.0
 40
0.0127952756
  0
CIRCLE
  5
38
100
AcDbEntity
  8
MOUNTING_HOLE_PADS_LAYER_4
100
AcDbCircle
 10
0.2
 20
5.8
 30
0.0
 40
0.0127952756
  0
CIRCLE
  5
39
100
AcDbEntity
  8
MOUNTING_HOLE_PADS_LAYER_4
100
AcDbCircle
 10
4.8
 20
5.8
 30
0.0
 40
0.0127952756
  0
CIRCLE
  5
3A
100
AcDbEntity
  8
MOUNTING_HOLE_PADS_LAYER_4
100
AcDbCircle
 10
0.1209285433
 20
4.0607409449
 30
0.0
 40
0.0127952756
  0
CIRCLE
  5
3B
100
AcDbEntity
  8
MOUNTING_HOLE_PADS_LAYER_4
100
AcDbCircle
 10
0.275
 20
4.75
 30
0.0
 40
0.0127952756
  0
CIRCLE
  5
3C
100
AcDbEntity
  8
MOUNTING_HOLE_PADS_LAYER_4
100
AcDbCircle
 10
0.275
 20
4.3
 30
0.0
 40
0.0127952756
  0
CIRCLE
  5
3D
100
AcDbEntity
  8
MOUNTING_HOLE_PADS_LAYER_4
100
AcDbCircle
 10
3.5692913386
 20
3.6192913386
 30
0.0
 40
0.0127952756
  0
CIRCLE
  5
3E
100
AcDbEntity
  8
MOUNTING_HOLE_PADS_LAYER_4
100
AcDbCircle
 10
2.2307086614
 20
2.2807086614
 30
0.0
 40
0.0127952756
  0
CIRCLE
  5
3F
100
AcDbEntity
  8
MOUNTING_HOLE_PADS_LAYER_4
100
AcDbCircle
 10
0.2606299213
 20
3.45
 30
0.0
 40
0.0127952756
  0
CIRCLE
  5
40
100
AcDbEntity
  8
MOUNTING_HOLE_PADS_LAYER_4
100
AcDbCircle
 10
0.2606299213
 20
2.45
 30
0.0
 40
0.0127952756
  0
CIRCLE
  5
41
100
AcDbEntity
  8
MOUNTING_HOLE_PADS_LAYER_5
100
AcDbCircle
 10
2.24
 20
0.31
 30
0.0
 40
0.0127952756
  0
CIRCLE
  5
42
100
AcDbEntity
  8
MOUNTING_HOLE_PADS_LAYER_5
100
AcDbCircle
 10
2.4404266929
 20
5.3648108268
 30
0.0
 40
0.0127952756
  0
CIRCLE
  5
43
100
AcDbEntity
  8
MOUNTING_HOLE_PADS_LAYER_5
100
AcDbCircle
 10
4.8
 20
0.2
 30
0.0
 40
0.0127952756
  0
CIRCLE
  5
44
100
AcDbEntity
  8
MOUNTING_HOLE_PADS_LAYER_5
100
AcDbCircle
 10
0.2
 20
0.2
 30
0.0
 40
0.0127952756
  0
CIRCLE
  5
45
100
AcDbEntity
  8
MOUNTING_HOLE_PADS_LAYER_5
100
AcDbCircle
 10
0.2
 20
5.8
 30
0.0
 40
0.0127952756
  0
CIRCLE
  5
46
100
AcDbEntity
  8
MOUNTING_HOLE_PADS_LAYER_5
100
AcDbCircle
 10
4.8
 20
5.8
 30
0.0
 40
0.0127952756
  0
CIRCLE
  5
47
100
AcDbEntity
  8
MOUNTING_HOLE_PADS_LAYER_5
100
AcDbCircle
 10
0.1209285433
 20
4.0607409449
 30
0.0
 40
0.0127952756
  0
CIRCLE
  5
48
100
AcDbEntity
  8
MOUNTING_HOLE_PADS_LAYER_5
100
AcDbCircle
 10
0.275
 20
4.75
 30
0.0
 40
0.0127952756
  0
CIRCLE
  5
49
100
AcDbEntity
  8
MOUNTING_HOLE_PADS_LAYER_5
100
AcDbCircle
 10
0.275
 20
4.3
 30
0.0
 40
0.0127952756
  0
CIRCLE
  5
4A
100
AcDbEntity
  8
MOUNTING_HOLE_PADS_LAYER_5
100
AcDbCircle
 10
3.5692913386
 20
3.6192913386
 30
0.0
 40
0.0127952756
  0
CIRCLE
  5
4B
100
AcDbEntity
  8
MOUNTING_HOLE_PADS_LAYER_5
100
AcDbCircle
 10
2.2307086614
 20
2.2807086614
 30
0.0
 40
0.0127952756
  0
CIRCLE
  5
4C
100
AcDbEntity
  8
MOUNTING_HOLE_PADS_LAYER_5
100
AcDbCircle
 10
0.2606299213
 20
3.45
 30
0.0
 40
0.0127952756
  0
CIRCLE
  5
4D
100
AcDbEntity
  8
MOUNTING_HOLE_PADS_LAYER_5
100
AcDbCircle
 10
0.2606299213
 20
2.45
 30
0.0
 40
0.0127952756
  0
CIRCLE
  5
4E
100
AcDbEntity
  8
MOUNTING_HOLES_LAYER_TOP
100
AcDbCircle
 10
2.99
 20
4.02
 30
0.0
 40
0.0200787402
  0
HATCH
  5
4F
100
AcDbEntity
  8
MOUNTING_HOLES_LAYER_TOP
100
AcDbHatch
 10
0.0
 20
0.0
 30
0.0
210
0.0
220
0.0
230
1.0
  2
SOLID
 70
         1
 71
         1
 91
        1
 92
        1
 93
        1
 72
         2
 10
2.9900000000000002
 20
4.0199999999999996
 40
0.0200787401574803
 50
0.0
 51
360.0
 73
         1
 97
        1
330
4E
 75
         0
 76
         1
 98
        1
 10
0.0
 20
0.0
  0
CIRCLE
  5
50
100
AcDbEntity
  8
MOUNTING_HOLES_LAYER_TOP
100
AcDbCircle
 10
3.35
 20
4.42
 30
0.0
 40
0.0200787402
  0
HATCH
  5
51
100
AcDbEntity
  8
MOUNTING_HOLES_LAYER_TOP
100
AcDbHatch
 10
0.0
 20
0.0
 30
0.0
210
0.0
220
0.0
230
1.0
  2
SOLID
 70
         1
 71
         1
 91
        1
 92
        1
 93
        1
 72
         2
 10
3.3500000000000001
 20
4.4199999999999999
 40
0.0200787401574803
 50
0.0
 51
360.0
 73
         1
 97
        1
330
50
 75
         0
 76
         1
 98
        1
 10
0.0
 20
0.0
  0
CIRCLE
  5
52
100
AcDbEntity
  8
MOUNTING_HOLES_LAYER_TOP
100
AcDbCircle
 10
2.24
 20
0.31
 30
0.0
 40
0.062992126
  0
HATCH
  5
53
100
AcDbEntity
  8
MOUNTING_HOLES_LAYER_TOP
100
AcDbHatch
 10
0.0
 20
0.0
 30
0.0
210
0.0
220
0.0
230
1.0
  2
SOLID
 70
         1
 71
         1
 91
        1
 92
        1
 93
        1
 72
         2
 10
2.2400000000000002
 20
0.31
 40
0.062992125984252
 50
0.0
 51
360.0
 73
         1
 97
        1
330
52
 75
         0
 76
         1
 98
        1
 10
0.0
 20
0.0
  0
CIRCLE
  5
54
100
AcDbEntity
  8
MOUNTING_HOLES_LAYER_TOP
100
AcDbCircle
 10
2.4404266929
 20
5.3648108268
 30
0.0
 40
0.062992126
  0
HATCH
  5
55
100
AcDbEntity
  8
MOUNTING_HOLES_LAYER_TOP
100
AcDbHatch
 10
0.0
 20
0.0
 30
0.0
210
0.0
220
0.0
230
1.0
  2
SOLID
 70
         1
 71
         1
 91
        1
 92
        1
 93
        1
 72
         2
 10
2.4404266929133858
 20
5.3648108267716532
 40
0.062992125984252
 50
0.0
 51
360.0
 73
         1
 97
        1
330
54
 75
         0
 76
         1
 98
        1
 10
0.0
 20
0.0
  0
CIRCLE
  5
56
100
AcDbEntity
  8
MOUNTING_HOLES_LAYER_TOP
100
AcDbCircle
 10
4.8
 20
0.2
 30
0.0
 40
0.062992126
  0
HATCH
  5
57
100
AcDbEntity
  8
MOUNTING_HOLES_LAYER_TOP
100
AcDbHatch
 10
0.0
 20
0.0
 30
0.0
210
0.0
220
0.0
230
1.0
  2
SOLID
 70
         1
 71
         1
 91
        1
 92
        1
 93
        1
 72
         2
 10
4.7999999999999998
 20
0.2
 40
0.062992125984252
 50
0.0
 51
360.0
 73
         1
 97
        1
330
56
 75
         0
 76
         1
 98
        1
 10
0.0
 20
0.0
  0
CIRCLE
  5
58
100
AcDbEntity
  8
MOUNTING_HOLES_LAYER_TOP
100
AcDbCircle
 10
0.2
 20
0.2
 30
0.0
 40
0.062992126
  0
HATCH
  5
59
100
AcDbEntity
  8
MOUNTING_HOLES_LAYER_TOP
100
AcDbHatch
 10
0.0
 20
0.0
 30
0.0
210
0.0
220
0.0
230
1.0
  2
SOLID
 70
         1
 71
         1
 91
        1
 92
        1
 93
        1
 72
         2
 10
0.2
 20
0.2
 40
0.062992125984252
 50
0.0
 51
360.0
 73
         1
 97
        1
330
58
 75
         0
 76
         1
 98
        1
 10
0.0
 20
0.0
  0
CIRCLE
  5
5A
100
AcDbEntity
  8
MOUNTING_HOLES_LAYER_TOP
100
AcDbCircle
 10
0.2
 20
5.8
 30
0.0
 40
0.062992126
  0
HATCH
  5
5B
100
AcDbEntity
  8
MOUNTING_HOLES_LAYER_TOP
100
AcDbHatch
 10
0.0
 20
0.0
 30
0.0
210
0.0
220
0.0
230
1.0
  2
SOLID
 70
         1
 71
         1
 91
        1
 92
        1
 93
        1
 72
         2
 10
0.2
 20
5.7999999999999998
 40
0.062992125984252
 50
0.0
 51
360.0
 73
         1
 97
        1
330
5A
 75
         0
 76
         1
 98
        1
 10
0.0
 20
0.0
  0
CIRCLE
  5
5C
100
AcDbEntity
  8
MOUNTING_HOLES_LAYER_TOP
100
AcDbCircle
 10
4.8
 20
5.8
 30
0.0
 40
0.062992126
  0
HATCH
  5
5D
100
AcDbEntity
  8
MOUNTING_HOLES_LAYER_TOP
100
AcDbHatch
 10
0.0
 20
0.0
 30
0.0
210
0.0
220
0.0
230
1.0
  2
SOLID
 70
         1
 71
         1
 91
        1
 92
        1
 93
        1
 72
         2
 10
4.7999999999999998
 20
5.7999999999999998
 40
0.062992125984252
 50
0.0
 51
360.0
 73
         1
 97
        1
330
5C
 75
         0
 76
         1
 98
        1
 10
0.0
 20
0.0
  0
CIRCLE
  5
5E
100
AcDbEntity
  8
MOUNTING_HOLES_LAYER_TOP
100
AcDbCircle
 10
0.1209285433
 20
4.0607409449
 30
0.0
 40
0.062992126
  0
HATCH
  5
5F
100
AcDbEntity
  8
MOUNTING_HOLES_LAYER_TOP
100
AcDbHatch
 10
0.0
 20
0.0
 30
0.0
210
0.0
220
0.0
230
1.0
  2
SOLID
 70
         1
 71
         1
 91
        1
 92
        1
 93
        1
 72
         2
 10
0.1209285433070866
 20
4.0607409448818901
 40
0.062992125984252
 50
0.0
 51
360.0
 73
         1
 97
        1
330
5E
 75
         0
 76
         1
 98
        1
 10
0.0
 20
0.0
  0
CIRCLE
  5
60
100
AcDbEntity
  8
MOUNTING_HOLES_LAYER_TOP
100
AcDbCircle
 10
0.275
 20
4.75
 30
0.0
 40
0.063976378
  0
HATCH
  5
61
100
AcDbEntity
  8
MOUNTING_HOLES_LAYER_TOP
100
AcDbHatch
 10
0.0
 20
0.0
 30
0.0
210
0.0
220
0.0
230
1.0
  2
SOLID
 70
         1
 71
         1
 91
        1
 92
        1
 93
        1
 72
         2
 10
0.275
 20
4.75
 40
0.0639763779527559
 50
0.0
 51
360.0
 73
         1
 97
        1
330
60
 75
         0
 76
         1
 98
        1
 10
0.0
 20
0.0
  0
CIRCLE
  5
62
100
AcDbEntity
  8
MOUNTING_HOLES_LAYER_TOP
100
AcDbCircle
 10
0.275
 20
4.3
 30
0.0
 40
0.063976378
  0
HATCH
  5
63
100
AcDbEntity
  8
MOUNTING_HOLES_LAYER_TOP
100
AcDbHatch
 10
0.0
 20
0.0
 30
0.0
210
0.0
220
0.0
230
1.0
  2
SOLID
 70
         1
 71
         1
 91
        1
 92
        1
 93
        1
 72
         2
 10
0.275
 20
4.2999999999999998
 40
0.0639763779527559
 50
0.0
 51
360.0
 73
         1
 97
        1
330
62
 75
         0
 76
         1
 98
        1
 10
0.0
 20
0.0
  0
CIRCLE
  5
64
100
AcDbEntity
  8
MOUNTING_HOLES_LAYER_TOP
100
AcDbCircle
 10
1.2416164961
 20
0.9762604724
 30
0.0
 40
0.075
  0
HATCH
  5
65
100
AcDbEntity
  8
MOUNTING_HOLES_LAYER_TOP
100
AcDbHatch
 10
0.0
 20
0.0
 30
0.0
210
0.0
220
0.0
230
1.0
  2
SOLID
 70
         1
 71
         1
 91
        1
 92
        1
 93
        1
 72
         2
 10
1.2416164960629921
 20
0.9762604724409448
 40
0.075
 50
0.0
 51
360.0
 73
         1
 97
        1
330
64
 75
         0
 76
         1
 98
        1
 10
0.0
 20
0.0
  0
CIRCLE
  5
66
100
AcDbEntity
  8
MOUNTING_HOLES_LAYER_TOP
100
AcDbCircle
 10
0.3606299213
 20
5.2700787402
 30
0.0
 40
0.075
  0
HATCH
  5
67
100
AcDbEntity
  8
MOUNTING_HOLES_LAYER_TOP
100
AcDbHatch
 10
0.0
 20
0.0
 30
0.0
210
0.0
220
0.0
230
1.0
  2
SOLID
 70
         1
 71
         1
 91
        1
 92
        1
 93
        1
 72
         2
 10
0.3606299212598425
 20
5.27007874015748
 40
0.075
 50
0.0
 51
360.0
 73
         1
 97
        1
330
66
 75
         0
 76
         1
 98
        1
 10
0.0
 20
0.0
  0
CIRCLE
  5
68
100
AcDbEntity
  8
MOUNTING_HOLES_LAYER_TOP
100
AcDbCircle
 10
4.3866141732
 20
1.4047244094
 30
0.0
 40
0.0200787402
  0
HATCH
  5
69
100
AcDbEntity
  8
MOUNTING_HOLES_LAYER_TOP
100
AcDbHatch
 10
0.0
 20
0.0
 30
0.0
210
0.0
220
0.0
230
1.0
  2
SOLID
 70
         1
 71
         1
 91
        1
 92
        1
 93
        1
 72
         2
 10
4.3866141732283461
 20
1.4047244094488189
 40
0.0200787401574803
 50
0.0
 51
360.0
 73
         1
 97
        1
330
68
 75
         0
 76
         1
 98
        1
 10
0.0
 20
0.0
  0
CIRCLE
  5
6A
100
AcDbEntity
  8
MOUNTING_HOLES_LAYER_TOP
100
AcDbCircle
 10
4.3866141732
 20
4.5031496063
 30
0.0
 40
0.0200787402
  0
HATCH
  5
6B
100
AcDbEntity
  8
MOUNTING_HOLES_LAYER_TOP
100
AcDbHatch
 10
0.0
 20
0.0
 30
0.0
210
0.0
220
0.0
230
1.0
  2
SOLID
 70
         1
 71
         1
 91
        1
 92
        1
 93
        1
 72
         2
 10
4.3866141732283461
 20
4.5031496062992122
 40
0.0200787401574803
 50
0.0
 51
360.0
 73
         1
 97
        1
330
6A
 75
         0
 76
         1
 98
        1
 10
0.0
 20
0.0
  0
CIRCLE
  5
6C
100
AcDbEntity
  8
MOUNTING_HOLES_LAYER_TOP
100
AcDbCircle
 10
4.1535433071
 20
2.1547244094
 30
0.0
 40
0.053
  0
HATCH
  5
6D
100
AcDbEntity
  8
MOUNTING_HOLES_LAYER_TOP
100
AcDbHatch
 10
0.0
 20
0.0
 30
0.0
210
0.0
220
0.0
230
1.0
  2
SOLID
 70
         1
 71
         1
 91
        1
 92
        1
 93
        1
 72
         2
 10
4.1535433070866139
 20
2.1547244094488187
 40
0.053
 50
0.0
 51
360.0
 73
         1
 97
        1
330
6C
 75
         0
 76
         1
 98
        1
 10
0.0
 20
0.0
  0
CIRCLE
  5
6E
100
AcDbEntity
  8
MOUNTING_HOLES_LAYER_TOP
100
AcDbCircle
 10
4.1535433071
 20
3.7452755906
 30
0.0
 40
0.053
  0
HATCH
  5
6F
100
AcDbEntity
  8
MOUNTING_HOLES_LAYER_TOP
100
AcDbHatch
 10
0.0
 20
0.0
 30
0.0
210
0.0
220
0.0
230
1.0
  2
SOLID
 70
         1
 71
         1
 91
        1
 92
        1
 93
        1
 72
         2
 10
4.1535433070866139
 20
3.7452755905511812
 40
0.053
 50
0.0
 51
360.0
 73
         1
 97
        1
330
6E
 75
         0
 76
         1
 98
        1
 10
0.0
 20
0.0
  0
CIRCLE
  5
70
100
AcDbEntity
  8
MOUNTING_HOLES_LAYER_TOP
100
AcDbCircle
 10
4.7834645669
 20
3.7452755906
 30
0.0
 40
0.053
  0
HATCH
  5
71
100
AcDbEntity
  8
MOUNTING_HOLES_LAYER_TOP
100
AcDbHatch
 10
0.0
 20
0.0
 30
0.0
210
0.0
220
0.0
230
1.0
  2
SOLID
 70
         1
 71
         1
 91
        1
 92
        1
 93
        1
 72
         2
 10
4.7834645669291342
 20
3.7452755905511812
 40
0.053
 50
0.0
 51
360.0
 73
         1
 97
        1
330
70
 75
         0
 76
         1
 98
        1
 10
0.0
 20
0.0
  0
CIRCLE
  5
72
100
AcDbEntity
  8
MOUNTING_HOLES_LAYER_TOP
100
AcDbCircle
 10
4.7834645669
 20
2.1547244094
 30
0.0
 40
0.053
  0
HATCH
  5
73
100
AcDbEntity
  8
MOUNTING_HOLES_LAYER_TOP
100
AcDbHatch
 10
0.0
 20
0.0
 30
0.0
210
0.0
220
0.0
230
1.0
  2
SOLID
 70
         1
 71
         1
 91
        1
 92
        1
 93
        1
 72
         2
 10
4.7834645669291342
 20
2.1547244094488187
 40
0.053
 50
0.0
 51
360.0
 73
         1
 97
        1
330
72
 75
         0
 76
         1
 98
        1
 10
0.0
 20
0.0
  0
CIRCLE
  5
74
100
AcDbEntity
  8
MOUNTING_HOLES_LAYER_TOP
100
AcDbCircle
 10
3.5692913386
 20
3.6192913386
 30
0.0
 40
0.062992126
  0
HATCH
  5
75
100
AcDbEntity
  8
MOUNTING_HOLES_LAYER_TOP
100
AcDbHatch
 10
0.0
 20
0.0
 30
0.0
210
0.0
220
0.0
230
1.0
  2
SOLID
 70
         1
 71
         1
 91
        1
 92
        1
 93
        1
 72
         2
 10
3.5692913385826772
 20
3.619291338582677
 40
0.062992125984252
 50
0.0
 51
360.0
 73
         1
 97
        1
330
74
 75
         0
 76
         1
 98
        1
 10
0.0
 20
0.0
  0
CIRCLE
  5
76
100
AcDbEntity
  8
MOUNTING_HOLES_LAYER_TOP
100
AcDbCircle
 10
2.2307086614
 20
2.2807086614
 30
0.0
 40
0.062992126
  0
HATCH
  5
77
100
AcDbEntity
  8
MOUNTING_HOLES_LAYER_TOP
100
AcDbHatch
 10
0.0
 20
0.0
 30
0.0
210
0.0
220
0.0
230
1.0
  2
SOLID
 70
         1
 71
         1
 91
        1
 92
        1
 93
        1
 72
         2
 10
2.230708661417323
 20
2.2807086614173229
 40
0.062992125984252
 50
0.0
 51
360.0
 73
         1
 97
        1
330
76
 75
         0
 76
         1
 98
        1
 10
0.0
 20
0.0
  0
CIRCLE
  5
78
100
AcDbEntity
  8
MOUNTING_HOLES_LAYER_TOP
100
AcDbCircle
 10
0.4996311024
 20
0.5566780315
 30
0.0
 40
0.075
  0
HATCH
  5
79
100
AcDbEntity
  8
MOUNTING_HOLES_LAYER_TOP
100
AcDbHatch
 10
0.0
 20
0.0
 30
0.0
210
0.0
220
0.0
230
1.0
  2
SOLID
 70
         1
 71
         1
 91
        1
 92
        1
 93
        1
 72
         2
 10
0.4996311023622047
 20
0.556678031496063
 40
0.075
 50
0.0
 51
360.0
 73
         1
 97
        1
330
78
 75
         0
 76
         1
 98
        1
 10
0.0
 20
0.0
  0
CIRCLE
  5
7A
100
AcDbEntity
  8
MOUNTING_HOLES_LAYER_TOP
100
AcDbCircle
 10
0.2606299213
 20
3.45
 30
0.0
 40
0.063976378
  0
HATCH
  5
7B
100
AcDbEntity
  8
MOUNTING_HOLES_LAYER_TOP
100
AcDbHatch
 10
0.0
 20
0.0
 30
0.0
210
0.0
220
0.0
230
1.0
  2
SOLID
 70
         1
 71
         1
 91
        1
 92
        1
 93
        1
 72
         2
 10
0.2606299212598425
 20
3.4500000000000002
 40
0.0639763779527559
 50
0.0
 51
360.0
 73
         1
 97
        1
330
7A
 75
         0
 76
         1
 98
        1
 10
0.0
 20
0.0
  0
CIRCLE
  5
7C
100
AcDbEntity
  8
MOUNTING_HOLES_LAYER_TOP
100
AcDbCircle
 10
0.2606299213
 20
2.45
 30
0.0
 40
0.063976378
  0
HATCH
  5
7D
100
AcDbEntity
  8
MOUNTING_HOLES_LAYER_TOP
100
AcDbHatch
 10
0.0
 20
0.0
 30
0.0
210
0.0
220
0.0
230
1.0
  2
SOLID
 70
         1
 71
         1
 91
        1
 92
        1
 93
        1
 72
         2
 10
0.2606299212598425
 20
2.4500000000000002
 40
0.0639763779527559
 50
0.0
 51
360.0
 73
         1
 97
        1
330
7C
 75
         0
 76
         1
 98
        1
 10
0.0
 20
0.0
  0
CIRCLE
  5
7E
100
AcDbEntity
  8
MOUNTING_HOLES_LAYER_BOTT7
100
AcDbCircle
 10
2.99
 20
4.02
 30
0.0
 40
0.0200787402
  0
HATCH
  5
7F
100
AcDbEntity
  8
MOUNTING_HOLES_LAYER_BOTT7
100
AcDbHatch
 10
0.0
 20
0.0
 30
0.0
210
0.0
220
0.0
230
1.0
  2
SOLID
 70
         1
 71
         1
 91
        1
 92
        1
 93
        1
 72
         2
 10
2.9900000000000002
 20
4.0199999999999996
 40
0.0200787401574803
 50
0.0
 51
360.0
 73
         1
 97
        1
330
7E
 75
         0
 76
         1
 98
        1
 10
0.0
 20
0.0
  0
CIRCLE
  5
80
100
AcDbEntity
  8
MOUNTING_HOLES_LAYER_BOTT7
100
AcDbCircle
 10
3.35
 20
4.42
 30
0.0
 40
0.0200787402
  0
HATCH
  5
81
100
AcDbEntity
  8
MOUNTING_HOLES_LAYER_BOTT7
100
AcDbHatch
 10
0.0
 20
0.0
 30
0.0
210
0.0
220
0.0
230
1.0
  2
SOLID
 70
         1
 71
         1
 91
        1
 92
        1
 93
        1
 72
         2
 10
3.3500000000000001
 20
4.4199999999999999
 40
0.0200787401574803
 50
0.0
 51
360.0
 73
         1
 97
        1
330
80
 75
         0
 76
         1
 98
        1
 10
0.0
 20
0.0
  0
CIRCLE
  5
82
100
AcDbEntity
  8
MOUNTING_HOLES_LAYER_BOTT7
100
AcDbCircle
 10
2.24
 20
0.31
 30
0.0
 40
0.062992126
  0
HATCH
  5
83
100
AcDbEntity
  8
MOUNTING_HOLES_LAYER_BOTT7
100
AcDbHatch
 10
0.0
 20
0.0
 30
0.0
210
0.0
220
0.0
230
1.0
  2
SOLID
 70
         1
 71
         1
 91
        1
 92
        1
 93
        1
 72
         2
 10
2.2400000000000002
 20
0.31
 40
0.062992125984252
 50
0.0
 51
360.0
 73
         1
 97
        1
330
82
 75
         0
 76
         1
 98
        1
 10
0.0
 20
0.0
  0
CIRCLE
  5
84
100
AcDbEntity
  8
MOUNTING_HOLES_LAYER_BOTT7
100
AcDbCircle
 10
2.4404266929
 20
5.3648108268
 30
0.0
 40
0.062992126
  0
HATCH
  5
85
100
AcDbEntity
  8
MOUNTING_HOLES_LAYER_BOTT7
100
AcDbHatch
 10
0.0
 20
0.0
 30
0.0
210
0.0
220
0.0
230
1.0
  2
SOLID
 70
         1
 71
         1
 91
        1
 92
        1
 93
        1
 72
         2
 10
2.4404266929133858
 20
5.3648108267716532
 40
0.062992125984252
 50
0.0
 51
360.0
 73
         1
 97
        1
330
84
 75
         0
 76
         1
 98
        1
 10
0.0
 20
0.0
  0
CIRCLE
  5
86
100
AcDbEntity
  8
MOUNTING_HOLES_LAYER_BOTT7
100
AcDbCircle
 10
4.8
 20
0.2
 30
0.0
 40
0.062992126
  0
HATCH
  5
87
100
AcDbEntity
  8
MOUNTING_HOLES_LAYER_BOTT7
100
AcDbHatch
 10
0.0
 20
0.0
 30
0.0
210
0.0
220
0.0
230
1.0
  2
SOLID
 70
         1
 71
         1
 91
        1
 92
        1
 93
        1
 72
         2
 10
4.7999999999999998
 20
0.2
 40
0.062992125984252
 50
0.0
 51
360.0
 73
         1
 97
        1
330
86
 75
         0
 76
         1
 98
        1
 10
0.0
 20
0.0
  0
CIRCLE
  5
88
100
AcDbEntity
  8
MOUNTING_HOLES_LAYER_BOTT7
100
AcDbCircle
 10
0.2
 20
0.2
 30
0.0
 40
0.062992126
  0
HATCH
  5
89
100
AcDbEntity
  8
MOUNTING_HOLES_LAYER_BOTT7
100
AcDbHatch
 10
0.0
 20
0.0
 30
0.0
210
0.0
220
0.0
230
1.0
  2
SOLID
 70
         1
 71
         1
 91
        1
 92
        1
 93
        1
 72
         2
 10
0.2
 20
0.2
 40
0.062992125984252
 50
0.0
 51
360.0
 73
         1
 97
        1
330
88
 75
         0
 76
         1
 98
        1
 10
0.0
 20
0.0
  0
CIRCLE
  5
8A
100
AcDbEntity
  8
MOUNTING_HOLES_LAYER_BOTT7
100
AcDbCircle
 10
0.2
 20
5.8
 30
0.0
 40
0.062992126
  0
HATCH
  5
8B
100
AcDbEntity
  8
MOUNTING_HOLES_LAYER_BOTT7
100
AcDbHatch
 10
0.0
 20
0.0
 30
0.0
210
0.0
220
0.0
230
1.0
  2
SOLID
 70
         1
 71
         1
 91
        1
 92
        1
 93
        1
 72
         2
 10
0.2
 20
5.7999999999999998
 40
0.062992125984252
 50
0.0
 51
360.0
 73
         1
 97
        1
330
8A
 75
         0
 76
         1
 98
        1
 10
0.0
 20
0.0
  0
CIRCLE
  5
8C
100
AcDbEntity
  8
MOUNTING_HOLES_LAYER_BOTT7
100
AcDbCircle
 10
4.8
 20
5.8
 30
0.0
 40
0.062992126
  0
HATCH
  5
8D
100
AcDbEntity
  8
MOUNTING_HOLES_LAYER_BOTT7
100
AcDbHatch
 10
0.0
 20
0.0
 30
0.0
210
0.0
220
0.0
230
1.0
  2
SOLID
 70
         1
 71
         1
 91
        1
 92
        1
 93
        1
 72
         2
 10
4.7999999999999998
 20
5.7999999999999998
 40
0.062992125984252
 50
0.0
 51
360.0
 73
         1
 97
        1
330
8C
 75
         0
 76
         1
 98
        1
 10
0.0
 20
0.0
  0
CIRCLE
  5
8E
100
AcDbEntity
  8
MOUNTING_HOLES_LAYER_BOTT7
100
AcDbCircle
 10
0.1209285433
 20
4.0607409449
 30
0.0
 40
0.062992126
  0
HATCH
  5
8F
100
AcDbEntity
  8
MOUNTING_HOLES_LAYER_BOTT7
100
AcDbHatch
 10
0.0
 20
0.0
 30
0.0
210
0.0
220
0.0
230
1.0
  2
SOLID
 70
         1
 71
         1
 91
        1
 92
        1
 93
        1
 72
         2
 10
0.1209285433070866
 20
4.0607409448818901
 40
0.062992125984252
 50
0.0
 51
360.0
 73
         1
 97
        1
330
8E
 75
         0
 76
         1
 98
        1
 10
0.0
 20
0.0
  0
CIRCLE
  5
90
100
AcDbEntity
  8
MOUNTING_HOLES_LAYER_BOTT7
100
AcDbCircle
 10
0.275
 20
4.75
 30
0.0
 40
0.063976378
  0
HATCH
  5
91
100
AcDbEntity
  8
MOUNTING_HOLES_LAYER_BOTT7
100
AcDbHatch
 10
0.0
 20
0.0
 30
0.0
210
0.0
220
0.0
230
1.0
  2
SOLID
 70
         1
 71
         1
 91
        1
 92
        1
 93
        1
 72
         2
 10
0.275
 20
4.75
 40
0.0639763779527559
 50
0.0
 51
360.0
 73
         1
 97
        1
330
90
 75
         0
 76
         1
 98
        1
 10
0.0
 20
0.0
  0
CIRCLE
  5
92
100
AcDbEntity
  8
MOUNTING_HOLES_LAYER_BOTT7
100
AcDbCircle
 10
0.275
 20
4.3
 30
0.0
 40
0.063976378
  0
HATCH
  5
93
100
AcDbEntity
  8
MOUNTING_HOLES_LAYER_BOTT7
100
AcDbHatch
 10
0.0
 20
0.0
 30
0.0
210
0.0
220
0.0
230
1.0
  2
SOLID
 70
         1
 71
         1
 91
        1
 92
        1
 93
        1
 72
         2
 10
0.275
 20
4.2999999999999998
 40
0.0639763779527559
 50
0.0
 51
360.0
 73
         1
 97
        1
330
92
 75
         0
 76
         1
 98
        1
 10
0.0
 20
0.0
  0
CIRCLE
  5
94
100
AcDbEntity
  8
MOUNTING_HOLES_LAYER_BOTT7
100
AcDbCircle
 10
1.2416164961
 20
0.9762604724
 30
0.0
 40
0.075
  0
HATCH
  5
95
100
AcDbEntity
  8
MOUNTING_HOLES_LAYER_BOTT7
100
AcDbHatch
 10
0.0
 20
0.0
 30
0.0
210
0.0
220
0.0
230
1.0
  2
SOLID
 70
         1
 71
         1
 91
        1
 92
        1
 93
        1
 72
         2
 10
1.2416164960629921
 20
0.9762604724409448
 40
0.075
 50
0.0
 51
360.0
 73
         1
 97
        1
330
94
 75
         0
 76
         1
 98
        1
 10
0.0
 20
0.0
  0
CIRCLE
  5
96
100
AcDbEntity
  8
MOUNTING_HOLES_LAYER_BOTT7
100
AcDbCircle
 10
0.3606299213
 20
5.2700787402
 30
0.0
 40
0.075
  0
HATCH
  5
97
100
AcDbEntity
  8
MOUNTING_HOLES_LAYER_BOTT7
100
AcDbHatch
 10
0.0
 20
0.0
 30
0.0
210
0.0
220
0.0
230
1.0
  2
SOLID
 70
         1
 71
         1
 91
        1
 92
        1
 93
        1
 72
         2
 10
0.3606299212598425
 20
5.27007874015748
 40
0.075
 50
0.0
 51
360.0
 73
         1
 97
        1
330
96
 75
         0
 76
         1
 98
        1
 10
0.0
 20
0.0
  0
CIRCLE
  5
98
100
AcDbEntity
  8
MOUNTING_HOLES_LAYER_BOTT7
100
AcDbCircle
 10
4.3866141732
 20
1.4047244094
 30
0.0
 40
0.0200787402
  0
HATCH
  5
99
100
AcDbEntity
  8
MOUNTING_HOLES_LAYER_BOTT7
100
AcDbHatch
 10
0.0
 20
0.0
 30
0.0
210
0.0
220
0.0
230
1.0
  2
SOLID
 70
         1
 71
         1
 91
        1
 92
        1
 93
        1
 72
         2
 10
4.3866141732283461
 20
1.4047244094488189
 40
0.0200787401574803
 50
0.0
 51
360.0
 73
         1
 97
        1
330
98
 75
         0
 76
         1
 98
        1
 10
0.0
 20
0.0
  0
CIRCLE
  5
9A
100
AcDbEntity
  8
MOUNTING_HOLES_LAYER_BOTT7
100
AcDbCircle
 10
4.3866141732
 20
4.5031496063
 30
0.0
 40
0.0200787402
  0
HATCH
  5
9B
100
AcDbEntity
  8
MOUNTING_HOLES_LAYER_BOTT7
100
AcDbHatch
 10
0.0
 20
0.0
 30
0.0
210
0.0
220
0.0
230
1.0
  2
SOLID
 70
         1
 71
         1
 91
        1
 92
        1
 93
        1
 72
         2
 10
4.3866141732283461
 20
4.5031496062992122
 40
0.0200787401574803
 50
0.0
 51
360.0
 73
         1
 97
        1
330
9A
 75
         0
 76
         1
 98
        1
 10
0.0
 20
0.0
  0
CIRCLE
  5
9C
100
AcDbEntity
  8
MOUNTING_HOLES_LAYER_BOTT7
100
AcDbCircle
 10
4.1535433071
 20
2.1547244094
 30
0.0
 40
0.053
  0
HATCH
  5
9D
100
AcDbEntity
  8
MOUNTING_HOLES_LAYER_BOTT7
100
AcDbHatch
 10
0.0
 20
0.0
 30
0.0
210
0.0
220
0.0
230
1.0
  2
SOLID
 70
         1
 71
         1
 91
        1
 92
        1
 93
        1
 72
         2
 10
4.1535433070866139
 20
2.1547244094488187
 40
0.053
 50
0.0
 51
360.0
 73
         1
 97
        1
330
9C
 75
         0
 76
         1
 98
        1
 10
0.0
 20
0.0
  0
CIRCLE
  5
9E
100
AcDbEntity
  8
MOUNTING_HOLES_LAYER_BOTT7
100
AcDbCircle
 10
4.1535433071
 20
3.7452755906
 30
0.0
 40
0.053
  0
HATCH
  5
9F
100
AcDbEntity
  8
MOUNTING_HOLES_LAYER_BOTT7
100
AcDbHatch
 10
0.0
 20
0.0
 30
0.0
210
0.0
220
0.0
230
1.0
  2
SOLID
 70
         1
 71
         1
 91
        1
 92
        1
 93
        1
 72
         2
 10
4.1535433070866139
 20
3.7452755905511812
 40
0.053
 50
0.0
 51
360.0
 73
         1
 97
        1
330
9E
 75
         0
 76
         1
 98
        1
 10
0.0
 20
0.0
  0
CIRCLE
  5
A0
100
AcDbEntity
  8
MOUNTING_HOLES_LAYER_BOTT7
100
AcDbCircle
 10
4.7834645669
 20
3.7452755906
 30
0.0
 40
0.053
  0
HATCH
  5
A1
100
AcDbEntity
  8
MOUNTING_HOLES_LAYER_BOTT7
100
AcDbHatch
 10
0.0
 20
0.0
 30
0.0
210
0.0
220
0.0
230
1.0
  2
SOLID
 70
         1
 71
         1
 91
        1
 92
        1
 93
        1
 72
         2
 10
4.7834645669291342
 20
3.7452755905511812
 40
0.053
 50
0.0
 51
360.0
 73
         1
 97
        1
330
A0
 75
         0
 76
         1
 98
        1
 10
0.0
 20
0.0
  0
CIRCLE
  5
A2
100
AcDbEntity
  8
MOUNTING_HOLES_LAYER_BOTT7
100
AcDbCircle
 10
4.7834645669
 20
2.1547244094
 30
0.0
 40
0.053
  0
HATCH
  5
A3
100
AcDbEntity
  8
MOUNTING_HOLES_LAYER_BOTT7
100
AcDbHatch
 10
0.0
 20
0.0
 30
0.0
210
0.0
220
0.0
230
1.0
  2
SOLID
 70
         1
 71
         1
 91
        1
 92
        1
 93
        1
 72
         2
 10
4.7834645669291342
 20
2.1547244094488187
 40
0.053
 50
0.0
 51
360.0
 73
         1
 97
        1
330
A2
 75
         0
 76
         1
 98
        1
 10
0.0
 20
0.0
  0
CIRCLE
  5
A4
100
AcDbEntity
  8
MOUNTING_HOLES_LAYER_BOTT7
100
AcDbCircle
 10
3.5692913386
 20
3.6192913386
 30
0.0
 40
0.062992126
  0
HATCH
  5
A5
100
AcDbEntity
  8
MOUNTING_HOLES_LAYER_BOTT7
100
AcDbHatch
 10
0.0
 20
0.0
 30
0.0
210
0.0
220
0.0
230
1.0
  2
SOLID
 70
         1
 71
         1
 91
        1
 92
        1
 93
        1
 72
         2
 10
3.5692913385826772
 20
3.619291338582677
 40
0.062992125984252
 50
0.0
 51
360.0
 73
         1
 97
        1
330
A4
 75
         0
 76
         1
 98
        1
 10
0.0
 20
0.0
  0
CIRCLE
  5
A6
100
AcDbEntity
  8
MOUNTING_HOLES_LAYER_BOTT7
100
AcDbCircle
 10
2.2307086614
 20
2.2807086614
 30
0.0
 40
0.062992126
  0
HATCH
  5
A7
100
AcDbEntity
  8
MOUNTING_HOLES_LAYER_BOTT7
100
AcDbHatch
 10
0.0
 20
0.0
 30
0.0
210
0.0
220
0.0
230
1.0
  2
SOLID
 70
         1
 71
         1
 91
        1
 92
        1
 93
        1
 72
         2
 10
2.230708661417323
 20
2.2807086614173229
 40
0.062992125984252
 50
0.0
 51
360.0
 73
         1
 97
        1
330
A6
 75
         0
 76
         1
 98
        1
 10
0.0
 20
0.0
  0
CIRCLE
  5
A8
100
AcDbEntity
  8
MOUNTING_HOLES_LAYER_BOTT7
100
AcDbCircle
 10
0.4996311024
 20
0.5566780315
 30
0.0
 40
0.075
  0
HATCH
  5
A9
100
AcDbEntity
  8
MOUNTING_HOLES_LAYER_BOTT7
100
AcDbHatch
 10
0.0
 20
0.0
 30
0.0
210
0.0
220
0.0
230
1.0
  2
SOLID
 70
         1
 71
         1
 91
        1
 92
        1
 93
        1
 72
         2
 10
0.4996311023622047
 20
0.556678031496063
 40
0.075
 50
0.0
 51
360.0
 73
         1
 97
        1
330
A8
 75
         0
 76
         1
 98
        1
 10
0.0
 20
0.0
  0
CIRCLE
  5
AA
100
AcDbEntity
  8
MOUNTING_HOLES_LAYER_BOTT7
100
AcDbCircle
 10
0.2606299213
 20
3.45
 30
0.0
 40
0.063976378
  0
HATCH
  5
AB
100
AcDbEntity
  8
MOUNTING_HOLES_LAYER_BOTT7
100
AcDbHatch
 10
0.0
 20
0.0
 30
0.0
210
0.0
220
0.0
230
1.0
  2
SOLID
 70
         1
 71
         1
 91
        1
 92
        1
 93
        1
 72
         2
 10
0.2606299212598425
 20
3.4500000000000002
 40
0.0639763779527559
 50
0.0
 51
360.0
 73
         1
 97
        1
330
AA
 75
         0
 76
         1
 98
        1
 10
0.0
 20
0.0
  0
CIRCLE
  5
AC
100
AcDbEntity
  8
MOUNTING_HOLES_LAYER_BOTT7
100
AcDbCircle
 10
0.2606299213
 20
2.45
 30
0.0
 40
0.063976378
  0
HATCH
  5
AD
100
AcDbEntity
  8
MOUNTING_HOLES_LAYER_BOTT7
100
AcDbHatch
 10
0.0
 20
0.0
 30
0.0
210
0.0
220
0.0
230
1.0
  2
SOLID
 70
         1
 71
         1
 91
        1
 92
        1
 93
        1
 72
         2
 10
0.2606299212598425
 20
2.4500000000000002
 40
0.0639763779527559
 50
0.0
 51
360.0
 73
         1
 97
        1
330
AC
 75
         0
 76
         1
 98
        1
 10
0.0
 20
0.0
  0
LWPOLYLINE
  5
AE
100
AcDbEntity
  8
NC_DRILL_ORIGIN
100
AcDbPolyline
 90
        2
 70
         0
 43
0.005
 10
-0.075
 20
0.0
 10
0.075
 20
0.0
  0
LWPOLYLINE
  5
AF
100
AcDbEntity
  8
NC_DRILL_ORIGIN
100
AcDbPolyline
 90
        2
 70
         0
 43
0.005
 10
0.0
 20
-0.075
 10
0.0
 20
0.075
  0
LWPOLYLINE
  5
B0
100
AcDbEntity
  8
NC_DRILL_ORIGIN
100
AcDbPolyline
 90
        4
 70
         1
 43
0.005
 10
-0.05
 20
-0.05
 10
-0.05
 20
0.05
 10
0.05
 20
0.05
 10
0.05
 20
-0.05
  0
TEXT
  5
B1
100
AcDbEntity
  8
NC_DRILL_ORIGIN
100
AcDbText
 10
0.005
 20
0.005
 30
0.0
 40
0.04
  1
D
  7
ARIAL
 11
0.005
 21
0.005
 31
0.0
100
AcDbText
 73
         1
  0
ENDSEC
  0
SECTION
  2
OBJECTS
  0
DICTIONARY
  5
19
100
AcDbDictionary
  3
ACAD_GROUP
350
1A
  3
ACAD_MLINESTYLE
350
1B
  0
DICTIONARY
  5
1A
102
{ACAD_REACTORS
330
19
102
}
100
AcDbDictionary
  0
DICTIONARY
  5
1B
102
{ACAD_REACTORS
330
19
102
}
100
AcDbDictionary
  3
STANDARD
350
1C
  0
MLINESTYLE
  5
1C
102
{ACAD_REACTORS
330
1B
102
}
100
AcDbMlineStyle
  2
STANDARD
 70
         0
  3

 62
         0
 51
90.0
 52
90.0
 71
         2
 49
0.5
 62
       256
  6
BYLAYER
 49
-0.5
 62
       256
  6
BYLAYER
  0
DICTIONARY
  5
22
102
{ACAD_REACTORS
330
19
102
}
100
AcDbDictionary
  0
ENDSEC
  0
EOF
